GeoCitesSites.com
"Something's Wrong" by the Avengers
(Houston/Ingraham/O’Brien/Wilsey)
transcribed by STUPOR
e-mail Flipout! for errors or comments

intro:
|----------|
|----------|
|-------7--|
|-5--8--7--|
|-5--8--5--|
|-3--6-----|

verse:
|---------------|---------------|
|---------------|---------------|
|-------7-------|-5--8----------|
|-5--8--7--[2X]-|-5--8--5--[2X]-|
|-5--8--5-------|-3--6--5-------|
|-3--6----------|-------3-------|

verse #2

chorus 2X:
|-------------|-----|
|-------------|-----|
|-5-8-5-------|-----|
|-5-8-5--[3X]-|-3-5-|
|-3-6-3-------|-3-5-|
|-------------|-1-3-|
something’s wrong.../with you...

solo:
|----------------------------------------|
|----------------------------------------|
|----------------------------------------|
|---------------3--------3--5--5--5--3---|
|---------5------5-3-5-----------------5-|
|-3---3-6---6----------------------------|

|----------------------------------------|
|----------------------------------------|
|----------------------------------------|
|---------------3-------------3----------|
|---------5-------5-3-5---5-5---5-3-5----|
|-3---3-6---6----------------------------|

|----------------------------------------|
|----------------------------------------|
|--------------3-------0-3-5/7-5/7-7-5-0-|
|---------5------5-3-5-------------------|
|-3---3-6---6----------------------------|
|----------------------------------------|

|----------------------------------------|
|----------------------------------------|
|----------------3-----------------------|
|----------5-------5-3-5-------(5)(5)-5--|
|-3----3-6---6-----------------(5)(5)-5--|
|------------------------------(3)(3)-3--|

chorus [2X]

verse #3

chorus [4X]

*back to main page*