GeoCitesSites.com
"The End of the World" by the Avengers
(Houston/Ingraham/O’Brien/Wilsey)
transcribed by STUPOR
e-mail Flipout! for errors or comments

intro 3X:
|------(2)-|
|------(2)-|
|-7--6-(2)-|
|-7--6--4--|
|-5--4--4--|
|-------2--|

verse:
|-2-------|---------|---(2)---|---(2)-2-|---------|
|-2-------|---------|---(2)---|---(2)-2-|---------|
|-2-------|---------|---(2)---|---(2)-2-|-7--6----|
|-4---(4)-|---------|---(4)---|-4-(4)-4-|-7--6--2-|
|-4---(4)-|---------|---------|-4-(4)-4-|-5--4--2-|
|-2-------|---------|---------|-0-(2)-2-|-------0-|

intro [3X]

verse #2:
|-2-------|----(2)--|----(2)--|-(2)-2-2-|---------|
|-2-------|----(2)--|----(2)--|-(2)-2-2-|---------|
|-2---(2)-|----(2)--|----(2)--|-(2)-2-2-|-7--6----|
|-4---(4)-|----(4)--|----(4)--|-(4)-4-4-|-7--6--2-|
|-4---(4)-|-(4)-----|-(4)-----|-(4)-4-4-|-5--4--2-|
|-2-------|-(2)-----|-(2)-----|-(2)-2-2-|-------0-|

intro [2X]

chorus:
|-------|-------|------|-------|
|-------|-------|------|-------|
|-6-7---|-7-6-9-|------|-7-6---|
|-6-7-7-|-7-6-9-|-[3X]-|-7-6-2-|
|-4-5-7-|-5-4-7-|------|-5-4-2-|
|-----5-|-------|------|-----0-|

intro [3X]

verse #3:
|-2---(2)-|---(2)---|-(2)-(2)-|-(2)-2-2-|---------|
|-2---(2)-|---(2)---|--(2)----|-(2)-2-2-|---------|
|-2---(2)-|---(2)---|---(2)---|-(2)-2-2-|-7--6----|
|-4---(4)-|---(4)---|---------|-(4)-4-4-|-7--6--2-|
|-4-(4)---|---------|---------|-(4)-4-4-|-5--4--2-|
|-2-(2)---|---------|---------|-(2)-2-2-|-------0-|

intro [2X]

chorus

intro [3X]

solo:
|-9--9---9----|-7--7---7---|-7/9---9--9-|-7/9---9--9-|
|-7----7---7--|-5----5---5-|-5/7-7--7---|-5/7-7--7---|
|-------------|------------|------------|------------|
|-------------|------------|------------|------------|
|-------------|------------|------------|------------|
|-------------|------------|------------|------------|

|-12---12--12-|-7--7---7---|-7/9---9--9-|-7/9---9--9-|
|-10-10--10---|-5----5---5-|-5/7-7--7---|-5/7-7-7-7--|
|-------------|------------|------------|------------|
|-------------|------------|------------|------------|
|-------------|------------|------------|------------|
|-------------|------------|------------|------------|

|-----------------------------4-4-4-------|
|-(4)/5-5-5-5-4-4-4-4-2-2-2-2-4-4-4-------|
|-----------------------------------------|
|------------------------------------[2X]-|
|-----------------------------------------|
|-----------------------------------------|

|-7/9---9---9-|-7----7---7-|-7/9--9-9--9/-|
|-5/7-7---7---|-5--5---5---|-5/7-7-7-7-7/-|
|-------------|------------|--------------|
|-------------|------------|--------------|
|-------------|------------|--------------|
|-------------|------------|--------------|

chorus

intro [4X]

*back to main page*