GeoCitesSites.com
"The good the bad and the Kowalskis" by the Avengers
(Houston/Ingraham/O’Brien/Wilsey)
transcribed by STUPOR
e-mail Flipout! for errors or comments

intro: 2X
|---------------------(1)----|
|---------------------(1)----|
|------------------(1)-------|
|-11--11/8--8-3----------(3)-|
|-11--11/8--8-3--------------|
|--9---9/6--6-1--------------|

verse: intro 4X
you were making a movie...

chorus:
|------------|------------(1)-|------------|----------|
|------------|------------(1)-|------------|----------|
|------------|---------(1)----|------------|----------|
|-4--6--3--8-|-4--6--3--------|-4--6--3--8-|-4--6--8--|
|-4--6--3--8-|-4--6--3--------|-4--6--3--8-|-4--6--8--|
|-2--4--1--6-|-2--4--1--------|-2--4--1--6-|-2--4--6--|

verse #2

chorus
...oh, you read the paper everyday...

solo:
|----------------------------------------------|
|----------------------------------------------|
|--------------------6~------------------------|
|-6---6---6------6-8-----3/4---3---4-3---------|
|------------8-------------------------4-3-----|
|----------------------------------------------|

|----------------------------------------------|
|-----------------------------4/6-6-6-6-6-4/6~-|
|---------------------6---6-8------------------|
|-----------------6-8--------------------------|
|-8/11--11----8--------------------------------|
|----------------------------------------------|

|----------------------6-4-----------|
|-----7--------9---6-------6-4h6-4h6-|
|-3/6-6----5/8-8---5-----------------|
|------------------------------------|
|------------------------------------|
|------------------------------------|

|------------------------------------|
|-----7--------9---6-----------------|
|-3/6-6-3--5/8-8---5--4/5~-5-3-1-----|
|--------------------------------3/4-|
|------------------------------------|
|------------------------------------|

chorus
...oh, you were afraid, never afraid...

intro

verse #3
you were making a movie...

chorus [2X]

outro:
|--------------|---------------|----|
|--------------|---------------|----|
|--------------|----11---------|----|
|-11-4--[4X]---|-11-11--[4X]---|-11-|
|-11-4---------|-11--9---------|-11-|
|--9-2---------|--9------------|--9-|

*back to main page*