GeoCitesSites.com
"White Nigger" by the Avengers
(Houston/Ingraham/O’Brien/Wilsey)
transcribed by STUPOR
e-mail Flipout! for errors or comments

intro:
|-3----1~----------1-|
|-3----1~-2/3-3-3~-1-|
|-4-4--------------2-|
|-5-5--------------3-|
|-5----------------3-|
|-3----------------1-|

main intro: 2X
|----------|
|----------|
|---8----8-|
|-5-8-10-8-|
|-5-6-10-6-|
|-3----8---|

verse: main intro 4X
you don’t know what you want...

chorus: 2X
|---------|
|---------|
|---6---8-|
|-3-6-8-8-|
|-3-4-8-6-|
|-1---6---|

main intro

verse #2
when you were young...

chorus

solo:
|-------------------------------|
|-8-6-----6-----6-----6---------|
|-7-7-5-7---7-7---7-7---7-------|
|--------------------------[2X]-|
|-------------------------------|
|-------------------------------|

|--------------------------|
|-11-11-8-6-11-11-8-8-6-8--|
|-10-10-7-7-10-10-7--------|
|--------------------------|
|--------------------------|
|--------------------------|

|--------------------------|
|--------------------------|
|-5/7-5/7-5/7-5/7-5/7-5/7~-|
|--------------------------|
|--------------------------|
|--------------------------|

bridge: 2X
|----------|
|----------|
|---5-8----|
|-8-5-8-10-|
|-8-3-6-10-|
|-6------8-|
look at you now...

chorus

main intro

verse [8X]

bridge [3X]
you’re so wrong...

|---|
|---|
|---|
|-5-|
|-5-|
|-3-|

*back to main page*