GeoCitesSites.com
"I want in" by the Avengers
(Houston/Ingraham/O’Brien/Wilsey)
transcribed by STUPOR
e-mail Flipout! for errors or comments

intro 2X:
|-----------------------------|-----------------------------|
|-----------------------------|-----------------------------|
|-----------------------------|-----------------------------|
|-----2-----5-------4-----4---|-----7-----5-------4-----4---|
|---2-----5---5---4-----4---4-|---7-----5---5---4-----4---4-|
|-0-----3-------2-----2-------|-5-----3-------2-----2-------|

verse: 2X
|-------|-------|
|-------|-------|
|-------|-------|
|-2-5-4-|-7-5-4-|
|-2-5-4-|-7-5-4-|
|-0-3-2-|-5-3-2-|

chorus:
|-------------|-------|
|-------------|-------|
|-------------|-------|
|-5-7-9--[3X]-|-5-7-4-|
|-5-7-9-------|-5-7-4-|
|-3-5-7-------|-3-5-2-|

verse #2 [4X]

chorus [2X]

bridge 4X: (slide end)
|------------|
|------------|
|-12-11-9-11-|
|-12-11-9-11-|
|-10--9-7--9-|
|------------|

verse #3 [4X]

chorus [2X]

bridge #2: 2X
|--------|
|----(5)-|
|----(4)-|
|-2------|
|-2------|
|-0------|

chorus [2X]

*back to main page*