GeoCitesSites.com
"Crazy Homicide" by the Avengers
(Houston/Ingraham/O’Brien/Wilsey)
transcribed by STUPOR
e-mail Flipout! for errors or comments

verse: 5X
|----|---------------|
|----|---------------|
|----|---------------|
|-10-|-10-8-5-8-5-8--|
|-10-|-10-8-5-8-5-8--|
|--8-|--8-6-3-6-3-6--|
nothing in the world can satisfy you...

verse #2
you never get caught...

chorus:
|-------------|-------------|
|-------------|-------------|
|--------[2X]-|-10-----[2X]-|
|-8--10-------|-10-10-------|
|-8--10-------|--8-10-------|
|-6---8-------|-----8-------|
what’s the point.../crazy homicide...

verse #3 (bass)
nothing in the world can satisfy you...

chorus [2X/4X]

outro: 4X
|-----|
|-----|
|-----|
|-3-5-|
|-3-5-|
|-1-3-|

*back to main page*