GeoCitesSites.com
"Friends of Mine" by the Avengers
(Houston/Ingraham/O’Brien/Wilsey) transcribed by STUPOR
e-mail Flipout! for errors or comments

intro: 4X
|-----------------------------------|-------|
|----10------------8-----8----------|-------|
|-------11-------9-----9-------[4X]-|-------|
|-12-------12-10-----9-----10-------|-12--7-|
|-12--------------------------------|-12--7-|
|-10--------------------------------|-10--5-|

variation: 4X
|---------------|
|---------------|
|-6-4-6-7-6-4-6-|
|-7-5-7-7-7-5-7-|
|---------------|
|---------------|

verse #1:
|-------|
|-------|
|---(6)-|
|-7-(7)-|
|-7-----|
|-5-----|

chorus 2X:
(bass driven)
|-------|
|-------|
|-------|
|-2---5-|
|-2---5-|
|-0---3-|
...I don’t give it away...

variation [2X]

verse #2

chorus

variation [2X]

bridge:
|--------------------|------|
|--------------------|-(10)-|
|------(4)/(6)--[4X]-|--(9)-|
|-9-5--(5)/(7)-------|------|
|-9-5----------------|------|
|-7-3----------------|------|
oh no...

verse #3

chorus

variation [2X]

verse #4

bridge

|---|
|---|
|-9-|
|-9-|
|-7-|
|---|

*back to main page*