GeoCitesSites.com
"Open Your Eyes" by the Avengers
(Houston/Ingraham/O’Brien/Wilsey)
transcribed by STUPOR
e-mail Flipout! for errors or comments

intro 2X:
|-------------|
|-------------|
|---------7-5-|
|-4-4/7-5-7-5-|
|-4-4/7-5-5-3-|
|-2-2/5-3-----|

pre verse 2X:
|-------------------|
|-------------------|
|-11-11/14-12-------|
|-11-11/14-12-12-10-|
|--9--9/12-10-12-10-|
|-------------10--8-|

verse: intro

chorus 4X:
|-------|
|-------|
|-4-----|
|-4-5-7-|
|-2-5-7-|
|---3-5-|
open your eyes...

pre verse

verse #2

chorus

pre verse

verse #3

chorus

outro 2X:
|---------------|---|
|---------------|---|
|-16-12-14------|-4-|
|-16-12-14-[2X]-|-4-|
|-14-10-12------|-2-|
|---------------|---|

*back to main page*