GeoCitesSites.com
"Desperation" by the Avengers
(Houston/Ingraham/OíBrien/Wilsey)
transcribed by STUPOR
e-mail Flipout! for errors or comments

intro: 2X
|--------------------|
|--------------------|
|-9------------------|
|-9-12-10/9-9-10/9-9-|
|-7-12-10/9-9-10/9-9-|
|---10--8/7-7--8/7-7-|

verse: intro
Iíve gotta get out of here...

mid verse: 2X
|--------------|--------------------|
|--------------|--------------------|
|-9------------|-9------------------|
|-9-12-10-[2X]-|-9-12-10/9-9-10/9-9-|
|-7-12-10------|-7-12-10/9-9-10/9-9-|
|---10--8------|---10--8/7-7--8/7-7-|
thereís nothing to do...

chorus:
|------------|---------|
|------------|---------|
|------------|-------9-|
|-10-12-[2X]-|-10-12-9-|
|-10-12------|-10-12-7-|
|--8-10------|--8-10---|
Iím running out of breath...

after chorus #1:
|-------------|
|-------------|
|-------------|
|-7/9-9-9-7---|
|-----------7-|
|-------------|

verse #2:
|----------------------|--------------------|
|----------------------|--------------------|
|-8/9------------------|-9------------------|
|-8/9-12-10/9-9-10/9-9-|-9-12-10/9-9-10/9-9-|
|-6/7-12-10/9-9-10/9-9-|-7-12-10/9-9-10/9-9-|
|-----10--8/7-7--8/7-7-|---10--8/7-7--8/7-7-|

mid verse [1X]

chorus

after chorus #2:
|-10/12-12-12-12-|
|-10/12-12-12-12-|
|----------------|
|----------------|
|----------------|
|----------------|

verse #3

mid verse [1X]

chorus [3X]

after chorus #1
(after 1st two choruses)

*back to main page*